0
SECTION
2
HEADER
9
$INSUNITS
70
4
9
$ACADVER
1
AC1014
9
$HANDSEED
5
FFFF
0
ENDSEC
0
SECTION
2
TABLES
0
TABLE
2
VPORT
5
8
100
AcDbSymbolTable
0
ENDTAB
0
TABLE
2
LTYPE
5
5
100
AcDbSymbolTable
0
LTYPE
5
14
100
AcDbSymbolTableRecord
100
AcDbLinetypeTableRecord
2
BYBLOCK
70
0
0
LTYPE
5
15
100
AcDbSymbolTableRecord
100
AcDbLinetypeTableRecord
2
BYLAYER
70
0
0
ENDTAB
0
TABLE
2
LAYER
5
2
100
AcDbSymbolTable
70
2
0
LAYER
5
50
100
AcDbSymbolTableRecord
100
AcDbLayerTableRecord
2
0
70
0
6
CONTINUOUS
0
ENDTAB
0
TABLE
2
STYLE
5
3
100
AcDbSymbolTable
70
1
0
STYLE
5
11
100
AcDbSymbolTableRecord
100
AcDbTextStyleTableRecord
2
STANDARD
70
0
0
ENDTAB
0
TABLE
2
VIEW
5
6
100
AcDbSymbolTable
70
0
0
ENDTAB
0
TABLE
2
UCS
5
7
100
AcDbSymbolTable
70
0
0
ENDTAB
0
TABLE
2
APPID
5
9
100
AcDbSymbolTable
70
2
0
APPID
5
12
100
AcDbSymbolTableRecord
100
AcDbRegAppTableRecord
2
ACAD
70
0
0
ENDTAB
0
TABLE
2
DIMSTYLE
5
A
100
AcDbSymbolTable
70
1
0
ENDTAB
0
TABLE
2
BLOCK_RECORD
5
1
100
AcDbSymbolTable
70
1
0
BLOCK_RECORD
5
1F
100
AcDbSymbolTableRecord
100
AcDbBlockTableRecord
2
*MODEL_SPACE
0
BLOCK_RECORD
5
1B
100
AcDbSymbolTableRecord
100
AcDbBlockTableRecord
2
*PAPER_SPACE
0
ENDTAB
0
ENDSEC
0
SECTION
2
BLOCKS
0
BLOCK
5
20
100
AcDbEntity
100
AcDbBlockBegin
2
*MODEL_SPACE
0
ENDBLK
5
21
100
AcDbEntity
100
AcDbBlockEnd
0
BLOCK
5
1C
100
AcDbEntity
100
AcDbBlockBegin
2
*PAPER_SPACE
0
ENDBLK
5
1D
100
AcDbEntity
100
AcDbBlockEnd
0
ENDSEC
0
SECTION
2
ENTITIES
0
LWPOLYLINE
5
100
100
AcDbEntity
8
0
100
AcDbPolyline
90
18
70
1
43
0.0
10
855.54492672818117
20
-1324.4195028686754
10
855.54492672818128
20
-1144.4195028686649
10
835.55389330704486
20
-1144.4195028686656
10
835.51641170841651
20
-1106.4096418538113
42
0.41392476937216355
10
825.51641657039806
20
-1096.4195028686647
10
765.53496014932261
20
-1096.4195028686647
42
0.41421356237311169
10
755.53496014932261
20
-1106.4195028686654
10
755.53496014932477
20
-1144.4195028686677
10
675.55489330702642
20
-1144.41950286867
10
675.51741170840319
20
-1106.4096418538181
42
0.41392476937221756
10
665.51741657038531
20
-1096.4195028686704
10
605.53004528783254
20
-1096.4195028686704
42
0.41404027946171451
10
595.53004703814668
20
-1106.4135862579178
10
595.50756041272257
20
-1144.4195028686727
10
575.54492672818117
20
-1144.4195028686729
10
575.54492672818128
20
-1324.4195028686747
42
0.41421356237309509
10
595.54492672818128
20
-1344.4195028686747
10
835.54492672818105
20
-1344.4195028686754
42
0.41421356237310336
0
LINE
5
101
100
AcDbEntity
8
0
100
AcDbLine
10
575.54492672818117
20
-1144.4195028686729
30
0
11
595.50756041272257
21
-1144.4195028686727
31
0
0
LINE
5
102
100
AcDbEntity
8
0
100
AcDbLine
10
675.55489330702642
20
-1144.41950286867
30
0
11
715.54492672817548
21
-1144.4195028686688
31
0
0
LWPOLYLINE
5
103
100
AcDbEntity
8
0
100
AcDbPolyline
90
4
70
1
43
0.0
10
601.94721517072901
20
-1182.7754289698848
10
626.94721517072901
20
-1182.7754289698848
10
626.94721517072901
20
-1157.7754289698848
10
601.94721517072901
20
-1157.7754289698848
0
LWPOLYLINE
5
104
100
AcDbEntity
8
0
100
AcDbPolyline
90
4
70
1
43
0.0
10
664.14263828564117
20
-1157.7754289698871
10
689.14263828564117
20
-1157.7754289698898
10
689.14263828563821
20
-1182.7754289698898
10
664.14263828563799
20
-1182.7754289698871
0
LWPOLYLINE
5
105
100
AcDbEntity
8
0
100
AcDbPolyline
90
4
70
1
43
0.0
10
829.14263828562287
20
-1157.7754289698787
10
829.14263828562412
20
-1182.7754289698787
10
804.14263828562423
20
-1182.7754289698801
10
804.14263828562287
20
-1157.7754289698801
0
LWPOLYLINE
5
106
100
AcDbEntity
8
0
100
AcDbPolyline
90
4
70
1
43
0.0
10
766.94721517071514
20
-1182.7754289698839
10
766.94721517071059
20
-1157.7754289698839
10
741.94721517071071
20
-1157.7754289698883
10
741.94721517071514
20
-1182.7754289698883
0
LWPOLYLINE
5
107
100
AcDbEntity
8
0
100
AcDbPolyline
90
4
70
1
43
0.0
10
626.94721517072901
20
-1206.0666622700844
10
626.94721517072912
20
-1231.0666622700844
10
601.94721517072912
20
-1231.0666622700844
10
601.94721517072901
20
-1206.0666622700844
0
LWPOLYLINE
5
108
100
AcDbEntity
8
0
100
AcDbPolyline
90
4
70
1
43
0.0
10
664.14263828564128
20
-1231.0666622700824
10
689.14263828564117
20
-1231.0666622700794
10
689.14263828563799
20
-1206.0666622700794
10
664.14263828563799
20
-1206.0666622700824
0
LWPOLYLINE
5
109
100
AcDbEntity
8
0
100
AcDbPolyline
90
4
70
1
43
0.0
10
766.94721517071093
20
-1231.0666622700851
10
741.94721517071071
20
-1231.066662270081
10
741.94721517071514
20
-1206.066662270081
10
766.94721517071514
20
-1206.0666622700851
0
LWPOLYLINE
5
110
100
AcDbEntity
8
0
100
AcDbPolyline
90
4
70
1
43
0.0
10
804.14263828562423
20
-1206.066662270089
10
804.14263828562287
20
-1231.066662270089
10
829.14263828562287
20
-1231.0666622700905
10
829.14263828562423
20
-1206.0666622700905
0
LWPOLYLINE
5
111
100
AcDbEntity
8
0
100
AcDbPolyline
90
4
70
1
43
0.0
10
601.94721517073117
20
-1331.0635767674623
10
601.9472151707306
20
-1306.0635767674623
10
626.9472151707306
20
-1306.0635767674617
10
626.94721517073117
20
-1331.0635767674617
0
LWPOLYLINE
5
112
100
AcDbEntity
8
0
100
AcDbPolyline
90
4
70
1
43
0.0
10
626.94721517072946
20
-1257.7723434672623
10
601.94721517072946
20
-1257.772343467263
10
601.94721517073003
20
-1282.772343467263
10
626.94721517073003
20
-1282.7723434672623
0
LWPOLYLINE
5
113
100
AcDbEntity
8
0
100
AcDbPolyline
90
4
70
1
43
0.0
10
664.14263828563946
20
-1282.7723434672632
10
664.14263828564162
20
-1257.7723434672632
10
689.14263828564162
20
-1257.7723434672655
10
689.14263828563958
20
-1282.7723434672657
0
LWPOLYLINE
5
114
100
AcDbEntity
8
0
100
AcDbPolyline
90
4
70
1
43
0.0
10
664.14263828564015
20
-1306.0635767674585
10
664.14263828564344
20
-1331.0635767674585
10
689.14263828564344
20
-1331.0635767674553
10
689.14263828564015
20
-1306.0635767674553
0
LWPOLYLINE
5
115
100
AcDbEntity
8
0
100
AcDbPolyline
90
4
70
1
43
0.0
10
741.94721517071298
20
-1331.0635767674553
10
741.94721517071707
20
-1306.0635767674553
10
766.94721517071707
20
-1306.0635767674589
10
766.94721517071298
20
-1331.0635767674589
0
LWPOLYLINE
5
116
100
AcDbEntity
8
0
100
AcDbPolyline
90
4
70
1
43
0.0
10
741.94721517071662
20
-1282.7723434672625
10
766.94721517071662
20
-1282.7723434672571
10
766.94721517071116
20
-1257.7723434672575
10
741.94721517071105
20
-1257.7723434672625
0
LWPOLYLINE
5
117
100
AcDbEntity
8
0
100
AcDbPolyline
90
4
70
1
43
0.0
10
804.14263828562571
20
-1282.7723434672525
10
804.14263828562309
20
-1257.7723434672525
10
829.14263828562321
20
-1257.7723434672503
10
829.14263828562571
20
-1282.7723434672503
0
LWPOLYLINE
5
118
100
AcDbEntity
8
0
100
AcDbPolyline
90
4
70
1
43
0.0
10
829.14263828562628
20
-1306.0635767674623
10
804.14263828562628
20
-1306.0635767674614
10
804.14263828562514
20
-1331.0635767674614
10
829.14263828562514
20
-1331.0635767674623
0
LWPOLYLINE
5
119
100
AcDbEntity
8
0
100
AcDbPolyline
90
18
70
1
43
0.0
10
1559.6102502540973
20
-1038.0316737100472
10
1204.6102502540978
20
-1038.0316737100477
42
0.41421356237309298
10
1184.6102502540978
20
-1058.0316737100475
10
1184.6102502540973
20
-1158.0321068031301
10
1165.785250254097
20
-1158.0321068049689
10
1165.7852502540973
20
-1183.032106686692
10
1147.8852502540972
20
-1183.032106686692
10
1147.8852502540972
20
-1158.0321068067174
10
1134.4454567777639
20
-1158.0321068080302
10
1134.445456785578
20
-1238.0313848080302
10
1630.1250437961844
20
-1238.0313847596124
10
1630.1250437883696
20
-1158.0321067596124
10
1617.2102502540974
20
-1158.0321067596126
10
1617.2102502540974
20
-1183.0321067596124
10
1598.6102502540973
20
-1183.0321067596124
10
1598.6102502540973
20
-1158.0321067596124
10
1579.6102502540973
20
-1158.0321067596124
10
1579.6102502540975
20
-1058.0316737100475
42
0.41421356237309709
0
LWPOLYLINE
5
120
100
AcDbEntity
8
0
100
AcDbPolyline
90
4
70
1
43
0.0
10
1342.292834127782
20
-1054.6297317681504
10
1262.292834127782
20
-1054.6297317681504
10
1262.292834127782
20
-1078.3297317681504
10
1342.292834127782
20
-1078.3297317681504
0
LWPOLYLINE
5
121
100
AcDbEntity
8
0
100
AcDbPolyline
90
4
70
1
43
0.0
10
1422.277666380412
20
-1054.6297317681506
10
1502.2776663804123
20
-1054.6297317681501
10
1502.2776663804123
20
-1077.6297317681501
10
1422.2776663804123
20
-1077.6297317681501
0
LWPOLYLINE
5
122
100
AcDbEntity
8
0
100
AcDbPolyline
90
4
70
1
43
0.0
10
1342.2928341277825
20
-1141.4340486285887
10
1262.292834127782
20
-1141.4340486285889
10
1262.292834127782
20
-1118.4340486285887
10
1342.292834127782
20
-1118.4340486285887
0
LWPOLYLINE
5
123
100
AcDbEntity
8
0
100
AcDbPolyline
90
4
70
1
43
0.0
10
1422.2776663804123
20
-1141.4340486285887
10
1502.2776663804125
20
-1141.4340486285889
10
1502.2776663804123
20
-1118.4340486285887
10
1422.277666380412
20
-1118.4340486285887
0
LWPOLYLINE
5
124
100
AcDbEntity
8
0
100
AcDbPolyline
90
4
70
1
43
0.0
10
1262.2928341277823
20
-1197.6301647447951
10
1342.2928341277825
20
-1197.6301647447949
10
1342.2928341277827
20
-1174.6301647447949
10
1262.2928341277818
20
-1174.6301647447949
0
LWPOLYLINE
5
125
100
AcDbEntity
8
0
100
AcDbPolyline
90
4
70
1
43
0.0
10
1422.2776663804125
20
-1197.6301647447942
10
1422.2776663804123
20
-1174.6301647447947
10
1502.277666380412
20
-1174.630164744794
10
1502.2776663804125
20
-1197.6301647447942
0
LINE
5
126
100
AcDbEntity
8
0
100
AcDbLine
10
929.01914983606389
20
-1685.4042312262754
30
0
11
929.01914983606389
21
-1625.4049528521941
31
0
0
LINE
5
127
100
AcDbEntity
8
0
100
AcDbLine
10
979.48010273974307
20
-1605.4944477037711
30
0
11
979.48010273974296
21
-1555.4047363638715
31
0
0
LINE
5
128
100
AcDbEntity
8
0
100
AcDbLine
10
1374.480102739743
20
-1555.4047363638715
30
0
11
1374.4801027397432
21
-1605.4049528521934
31
0
0
LINE
5
129
100
AcDbEntity
8
0
100
AcDbLine
10
1392.6589433413669
20
-1605.4049528521934
30
0
11
1374.4801027397432
21
-1605.4049528521934
31
0
0
LINE
5
130
100
AcDbEntity
8
0
100
AcDbLine
10
1424.6987368466703
20
-1685.404231226275
30
0
11
1424.6987368466698
21
-1625.4049528521937
31
0
0
LWPOLYLINE
5
131
100
AcDbEntity
8
0
100
AcDbPolyline
90
4
70
1
43
0.0
10
219.68359436833822
20
-307.66764886579097
10
219.68359436833822
20
-332.66764886579097
10
319.68359436833822
20
-332.66764886579097
10
319.68359436833828
20
-307.66764886579102
0
LINE
5
132
100
AcDbEntity
8
0
100
AcDbLine
10
84.630207752567713
20
-582.73669184528455
30
0
11
174.62675245600835
21
-582.73669184528455
31
0
0
LWPOLYLINE
5
133
100
AcDbEntity
8
0
100
AcDbPolyline
90
4
70
1
43
0.0
10
319.68359436833822
20
-557.80573482477826
10
219.68359436833822
20
-557.80573482477826
10
219.68359436833822
20
-532.80573482477826
10
319.68359436833822
20
-532.80573482477826
0
LWPOLYLINE
5
134
100
AcDbEntity
8
0
100
AcDbPolyline
90
4
70
1
43
0.0
10
319.68359436833822
20
-383.05123353468474
10
319.68359436833822
20
-408.05123353468474
10
219.68359436833822
20
-408.05123353468474
10
219.68359436833822
20
-383.05123353468474
0
LINE
5
135
100
AcDbEntity
8
0
100
AcDbLine
10
74.630207752567713
20
-652.73700329578401
30
0
11
74.630207752567713
21
-641.91865747202598
31
0
0
LINE
5
136
100
AcDbEntity
8
0
100
AcDbLine
10
74.630207752567713
20
-603.32019423731242
30
0
11
74.630207752567685
21
-592.73669184528455
31
0
0
LWPOLYLINE
5
137
100
AcDbEntity
8
0
100
AcDbPolyline
90
4
70
1
43
0.0
10
219.68359436833822
20
-457.42215015588442
10
219.68359436833822
20
-482.42215015588442
10
319.68359436833822
20
-482.42215015588442
10
319.68359436833822
20
-457.42215015588442
0
LINE
5
138
100
AcDbEntity
8
0
100
AcDbLine
10
174.62675245600835
20
-582.73669184528455
30
0
11
174.62675245600835
21
-332.73657121105305
31
0
0
LINE
5
139
100
AcDbEntity
8
0
100
AcDbLine
10
224.62675245600835
20
-282.73657121105299
30
0
11
504.62686061906061
21
-282.73657121105293
31
0
0
LWPOLYLINE
5
140
100
AcDbEntity
8
0
100
AcDbPolyline
90
4
70
1
43
0.0
10
409.56991054367847
20
-457.42215015588442
10
509.56991054367847
20
-457.42215015588442
10
509.56991054367847
20
-482.42215015588442
10
409.56991054367847
20
-482.42215015588442
0
LWPOLYLINE
5
141
100
AcDbEntity
8
0
100
AcDbPolyline
90
4
70
1
43
0.0
10
409.56991054367847
20
-383.05123353468474
10
409.56991054367847
20
-408.05123353468474
10
509.56991054367847
20
-408.05123353468474
10
509.56991054367847
20
-383.05123353468474
0
LWPOLYLINE
5
142
100
AcDbEntity
8
0
100
AcDbPolyline
90
4
70
1
43
0.0
10
409.56991054367847
20
-332.66764886579097
10
409.56991054367847
20
-307.66764886579097
10
509.56991054367847
20
-307.66764886579097
10
509.56991054367847
20
-332.66764886579097
0
LINE
5
143
100
AcDbEntity
8
0
100
AcDbLine
10
644.62686528271843
20
-582.73653937423762
30
0
11
554.62686061906061
21
-582.73657121105293
31
0
0
LINE
5
144
100
AcDbEntity
8
0
100
AcDbLine
10
554.62686061906072
20
-332.73657121105293
30
0
11
554.62686061906061
21
-582.73657121105293
31
0
0
LWPOLYLINE
5
145
100
AcDbEntity
8
0
100
AcDbPolyline
90
4
70
1
43
0.0
10
509.56991054367847
20
-532.80573482477826
10
409.56991054367847
20
-532.80573482477826
10
409.56991054367847
20
-557.80573482477826
10
509.56991054367847
20
-557.80573482477826
0
LINE
5
146
100
AcDbEntity
8
0
100
AcDbLine
10
-1655.9079597371715
20
-1906.2574571898492
30
0
11
-1655.9079597371715
21
-1873.257457189849
31
0
0
LINE
5
147
100
AcDbEntity
8
0
100
AcDbLine
10
-1155.9079597371715
20
-1883.2574571898488
30
0
11
-1155.9079597371715
21
-1896.2574571898494
31
0
0
LINE
5
148
100
AcDbEntity
8
0
100
AcDbLine
10
575.54492672818117
20
-1144.4195028686729
30
0
11
575.54492672818139
21
-1344.4195028686747
31
0
0
LINE
5
149
100
AcDbEntity
8
0
100
AcDbLine
10
-1222.4929835875428
20
-1873.257457189849
30
0
11
-1222.4929835875428
21
-1881.2574571898492
31
0
0
LINE
5
150
100
AcDbEntity
8
0
100
AcDbLine
10
-1222.4929835875428
20
-1881.2574571898492
30
0
11
-1237.4929835875428
21
-1881.2574571898492
31
0
0
LINE
5
151
100
AcDbEntity
8
0
100
AcDbLine
10
-1237.4929835875428
20
-1881.2574571898492
30
0
11
-1237.4929835875428
21
-1873.257457189849
31
0
0
LINE
5
152
100
AcDbEntity
8
0
100
AcDbLine
10
-1222.4929835875428
20
-1873.257457189849
30
0
11
-1165.9079597371713
21
-1873.257457189849
31
0
0
LINE
5
153
100
AcDbEntity
8
0
100
AcDbLine
10
-1237.4929835875428
20
-1898.257457189849
30
0
11
-1237.4929835875428
21
-1906.2574571898492
31
0
0
LINE
5
154
100
AcDbEntity
8
0
100
AcDbLine
10
-1222.4929835875428
20
-1898.257457189849
30
0
11
-1237.4929835875428
21
-1898.257457189849
31
0
0
LINE
5
155
100
AcDbEntity
8
0
100
AcDbLine
10
-1222.4929835875428
20
-1906.2574571898492
30
0
11
-1222.4929835875428
21
-1898.257457189849
31
0
0
LINE
5
156
100
AcDbEntity
8
0
100
AcDbLine
10
-1165.9079597371713
20
-1906.2574571898492
30
0
11
-1222.4929835875428
21
-1906.2574571898492
31
0
0
LINE
5
157
100
AcDbEntity
8
0
100
AcDbLine
10
-1639.3229358868002
20
-1906.2574571898492
30
0
11
-1639.3229358868002
21
-1898.257457189849
31
0
0
LINE
5
158
100
AcDbEntity
8
0
100
AcDbLine
10
-1624.3229358868002
20
-1881.2574571898492
30
0
11
-1624.3229358868002
21
-1873.257457189849
31
0
0
LINE
5
159
100
AcDbEntity
8
0
100
AcDbLine
10
-1655.9079597371715
20
-1873.257457189849
30
0
11
-1639.3229358868002
21
-1873.257457189849
31
0
0
LINE
5
160
100
AcDbEntity
8
0
100
AcDbLine
10
-1624.3229358868002
20
-1873.257457189849
30
0
11
-1237.4929835875428
21
-1873.257457189849
31
0
0
LINE
5
161
100
AcDbEntity
8
0
100
AcDbLine
10
-1237.4929835875428
20
-1906.2574571898492
30
0
11
-1624.3229358868002
21
-1906.2574571898492
31
0
0
LINE
5
162
100
AcDbEntity
8
0
100
AcDbLine
10
-1639.3229358868002
20
-1906.2574571898492
30
0
11
-1655.9079597371715
21
-1906.2574571898492
31
0
0
LWPOLYLINE
5
163
100
AcDbEntity
8
0
100
AcDbPolyline
90
24
70
1
43
0.0
10
-1649.5220996645808
20
-1961.0990252824718
10
-1656.107123514952
20
-1961.0990252824718
42
0.41421356237311169
10
-1666.107123514952
20
-1971.0990252824718
10
-1666.107123514952
20
-1999.0990252824718
42
0.41421356237311169
10
-1656.107123514952
20
-2009.0990252824718
10
-1649.5220996645808
20
-2009.0990252824718
10
-1649.5220996645808
20
-1999.0990252824718
10
-1634.5220996645808
20
-1999.0990252824718
10
-1634.5220996645808
20
-2009.0990252824718
10
-1247.6921473653235
20
-2009.0990252824718
10
-1247.6921473653235
20
-1999.0990252824718
10
-1232.6921473653235
20
-1999.0990252824718
10
-1232.6921473653235
20
-2009.0990252824718
10
-1176.1071235149527
20
-2009.0990252824718
42
0.41421356237309509
10
-1166.107123514952
20
-1999.0990252824713
10
-1166.107123514952
20
-1971.0990252824715
42
0.41421356237309509
10
-1176.107123514952
20
-1961.0990252824718
10
-1232.6921473653235
20
-1961.0990252824718
10
-1232.6921473653235
20
-1971.0990252824718
10
-1247.6921473653235
20
-1971.0990252824718
10
-1247.6921473653235
20
-1961.0990252824718
10
-1634.5220996645808
20
-1961.0990252824718
10
-1634.5220996645808
20
-1971.0990252824718
10
-1649.5220996645808
20
-1971.0990252824718
0
LINE
5
164
100
AcDbEntity
8
0
100
AcDbLine
10
84.630215953649426
20
-662.7370032957806
30
0
11
644.62692622771885
21
-662.73654403789737
31
0
0
ARC
5
165
100
AcDbEntity
8
0
100
AcDbCircle
10
224.62675245600835
20
-332.73657121105305
30
0
40
50.000000000000036
100
AcDbArc
50
90
51
180
0
ARC
5
166
100
AcDbEntity
8
0
100
AcDbCircle
10
504.62686061906072
20
-332.73657121105293
30
0
40
50
100
AcDbArc
50
0
51
90.000000000000128
0
LWPOLYLINE
5
167
100
AcDbEntity
8
0
100
AcDbPolyline
90
14
70
1
43
0.0
10
477.87303808044965
20
-877.23079311237029
10
-82.126961919550581
20
-877.23079311237041
42
0.41421356237309087
10
-92.126961919550411
20
-887.23079311237018
10
-92.126961919550396
20
-898.49013998758642
42
0.31567862887871861
10
-85.534175204335483
20
-907.89178333500092
10
197.87355665671097
20
-907.89178333500092
10
197.87355665671097
20
-926.49178333500095
10
-85.53406033017616
20
-926.49178333500095
42
0.31568198790731894
10
-92.12696191955034
20
-935.89346831272212
10
-92.126961919550382
20
-947.23079311237041
42
0.41421356237309509
10
-82.126961919550538
20
-957.23079311237029
10
477.87303808044976
20
-957.23079311237029
42
0.41421356237309509
10
487.87303808044959
20
-947.23079311237029
10
487.87303808044959
20
-887.23079311237018
42
0.41421356237309509
0
LINE
5
168
100
AcDbEntity
8
0
100
AcDbLine
10
124.6047912184103
20
-613.32125311608854
30
0
11
124.60377721013295
21
-631.92125308844845
31
0
0
LINE
5
169
100
AcDbEntity
8
0
100
AcDbLine
10
197.873556656711
20
-917.23079311237029
30
0
11
197.87355665671097
21
-926.49178333500095
31
0
0
ARC
5
170
100
AcDbEntity
8
0
100
AcDbCircle
10
84.630207752567713
20
-592.73669184528455
30
0
40
10
100
AcDbArc
50
90
51
180
0
ARC
5
171
100
AcDbEntity
8
0
100
AcDbCircle
10
84.630207752567642
20
-652.73700329578401
30
0
40
9.9999999999999201
100
AcDbArc
50
180
51
270.00004698873738
0
ARC
5
172
100
AcDbEntity
8
0
100
AcDbCircle
10
644.62686882014225
20
-592.73653937423694
30
0
40
9.9999999999996678
100
AcDbArc
50
4.6988586601783713e-05
51
90.000020267945544
0
ARC
5
173
100
AcDbEntity
8
0
100
AcDbCircle
10
644.62691802663699
20
-652.73654403790079
30
0
40
9.999999999999952
100
AcDbArc
50
-89.99995301126215
51
4.6988586601783713e-05
0
ARC
5
174
100
AcDbEntity
8
0
100
AcDbCircle
10
-1165.9079597371713
20
-1883.2574571898488
30
0
40
9.9999999999998579
100
AcDbArc
50
0
51
90
0
ARC
5
175
100
AcDbEntity
8
0
100
AcDbCircle
10
-1165.9079597371713
20
-1896.2574571898494
30
0
40
9.9999999999997158
100
AcDbArc
50
-90
51
0
0
LINE
5
176
100
AcDbEntity
8
0
100
AcDbLine
10
-1639.3229358868002
20
-1898.257457189849
30
0
11
-1624.3229358868002
21
-1898.257457189849
31
0
0
LINE
5
177
100
AcDbEntity
8
0
100
AcDbLine
10
-1639.3229358868002
20
-1881.2574571898492
30
0
11
-1624.3229358868002
21
-1881.2574571898492
31
0
0
LINE
5
178
100
AcDbEntity
8
0
100
AcDbLine
10
-1624.3229358868002
20
-1898.257457189849
30
0
11
-1624.3229358868002
21
-1906.2574571898492
31
0
0
LINE
5
179
100
AcDbEntity
8
0
100
AcDbLine
10
-1639.3229358868002
20
-1873.257457189849
30
0
11
-1639.3229358868002
21
-1881.2574571898492
31
0
0
LINE
5
180
100
AcDbEntity
8
0
100
AcDbLine
10
754.92219825834536
20
-448.38939063469695
30
0
11
754.92219825834536
21
-437.63939063469684
31
0
0
LINE
5
181
100
AcDbEntity
8
0
100
AcDbLine
10
754.92219825834536
20
-409.0393906346967
30
0
11
1044.9221982583454
21
-409.0393906346967
31
0
0
LINE
5
182
100
AcDbEntity
8
0
100
AcDbLine
10
1044.9221982583454
20
-427.63939063469672
30
0
11
764.92219825834536
21
-427.63939063469684
31
0
0
LINE
5
183
100
AcDbEntity
8
0
100
AcDbLine
10
764.92219825834536
20
-378.38939063469684
30
0
11
854.92219825834536
21
-378.38939063469684
31
0
0
ARC
5
184
100
AcDbEntity
8
0
100
AcDbCircle
10
764.92219825834536
20
-437.63939063469684
30
0
40
10
100
AcDbArc
50
90
51
180
0
ARC
5
185
100
AcDbEntity
8
0
100
AcDbCircle
10
764.92219825834536
20
-388.38939063469684
30
0
40
10
100
AcDbArc
50
90
51
180
0
ARC
5
186
100
AcDbEntity
8
0
100
AcDbCircle
10
764.92219825834525
20
-448.38939063469695
30
0
40
9.9999999999998579
100
AcDbArc
50
180
51
270.00000000000068
0
LINE
5
187
100
AcDbEntity
8
0
100
AcDbLine
10
754.92219825834536
20
-409.0393906346967
30
0
11
754.92219825834536
21
-388.38939063469684
31
0
0
LWPOLYLINE
5
188
100
AcDbEntity
8
0
100
AcDbPolyline
90
4
70
1
43
0.0
10
999.97904017067526
20
-328.45843361419043
10
999.97904017067526
20
-353.45843361419043
10
899.97904017067526
20
-353.45843361419043
10
899.97904017067526
20
-328.45843361419043
0
LWPOLYLINE
5
189
100
AcDbEntity
8
0
100
AcDbPolyline
90
4
70
1
43
0.0
10
899.97904017067526
20
-203.70393232409697
10
899.97904017067526
20
-178.70393232409697
10
999.97904017067526
20
-178.70393232409697
10
999.97904017067526
20
-203.70393232409697
0
LWPOLYLINE
5
190
100
AcDbEntity
8
0
100
AcDbPolyline
90
4
70
1
43
0.0
10
899.97904017067526
20
-253.07484894529665
10
899.97904017067526
20
-278.07484894529665
10
999.97904017067526
20
-278.07484894529665
10
999.97904017067526
20
-253.07484894529665
0
ARC
5
191
100
AcDbEntity
8
0
100
AcDbCircle
10
904.92219825834536
20
-128.38939063469681
30
0
40
50
100
AcDbArc
50
90
51
180
0
LINE
5
192
100
AcDbEntity
8
0
100
AcDbLine
10
904.92219825834536
20
-78.389390634696809
30
0
11
1184.9221982583454
21
-78.389390634696809
31
0
0
LINE
5
193
100
AcDbEntity
8
0
100
AcDbLine
10
854.92219825834536
20
-378.38939063469684
30
0
11
854.92219825834536
21
-128.38939063469681
31
0
0
LINE
5
194
100
AcDbEntity
8
0
100
AcDbLine
10
1234.9221982583454
20
-128.38939063469681
30
0
11
1234.9221982583454
21
-378.38939063469684
31
0
0
LINE
5
195
100
AcDbEntity
8
0
100
AcDbLine
10
754.92219825834559
20
-409.03939063469687
30
0
11
1044.9221982583456
21
-409.03939063469687
31
0
0
LINE
5
196
100
AcDbEntity
8
0
100
AcDbLine
10
1044.9221982583456
20
-427.63939063469684
30
0
11
764.92219825834536
21
-427.63939063469684
31
0
0
LWPOLYLINE
5
197
100
AcDbEntity
8
0
100
AcDbPolyline
90
4
70
1
43
0.0
10
1189.8653563460155
20
-353.45843361419043
10
1189.8653563460155
20
-328.45843361419043
10
1089.8653563460155
20
-328.45843361419043
10
1089.8653563460155
20
-353.45843361419043
0
ARC
5
198
100
AcDbEntity
8
0
100
AcDbCircle
10
1324.9221982583456
20
-448.38939063469695
30
0
40
9.9999999999998579
100
AcDbArc
50
-90
51
0
0
ARC
5
199
100
AcDbEntity
8
0
100
AcDbCircle
10
1324.9221982583456
20
-388.38939063469667
30
0
40
9.9999999999997158
100
AcDbArc
50
0
51
90
0
LINE
5
200
100
AcDbEntity
8
0
100
AcDbLine
10
1334.9221982583454
20
-388.38939063469667
30
0
11
1334.9221982583454
21
-448.38939063469695
31
0
0
LWPOLYLINE
5
201
100
AcDbEntity
8
0
100
AcDbPolyline
90
4
70
1
43
0.0
10
1189.8653563460155
20
-178.70393232409697
10
1089.8653563460155
20
-178.70393232409697
10
1089.8653563460155
20
-203.70393232409697
10
1189.8653563460155
20
-203.70393232409697
0
LINE
5
202
100
AcDbEntity
8
0
100
AcDbLine
10
1044.9221982583456
20
-409.03939063469687
30
0
11
1044.9221982583456
21
-427.63939063469684
31
0
0
LINE
5
203
100
AcDbEntity
8
0
100
AcDbLine
10
1044.9221982583454
20
-409.0393906346967
30
0
11
1044.9221982583454
21
-427.63939063469672
31
0
0
LINE
5
204
100
AcDbEntity
8
0
100
AcDbLine
10
1324.9221982583456
20
-378.38939063469684
30
0
11
1234.9221982583454
21
-378.38939063469684
31
0
0
LWPOLYLINE
5
205
100
AcDbEntity
8
0
100
AcDbPolyline
90
4
70
1
43
0.0
10
999.97904017067526
20
-128.32034765520319
10
999.97904017067572
20
-103.32034765520288
10
899.97904017067526
20
-103.32034765520319
10
899.97904017067526
20
-128.32034765520319
0
LWPOLYLINE
5
206
100
AcDbEntity
8
0
100
AcDbPolyline
90
4
70
1
43
0.0
10
1089.8653563460155
20
-128.32034765520319
10
1089.8653563460155
20
-103.32034765520319
10
1189.8653563460155
20
-103.32034765520319
10
1189.8653563460155
20
-128.32034765520319
0
LWPOLYLINE
5
207
100
AcDbEntity
8
0
100
AcDbPolyline
90
4
70
1
43
0.0
10
1089.8653563460155
20
-278.07484894529665
10
1089.8653563460155
20
-253.07484894529665
10
1189.8653563460155
20
-253.07484894529665
10
1189.8653563460155
20
-278.07484894529665
0
ARC
5
208
100
AcDbEntity
8
0
100
AcDbCircle
10
1184.9221982583454
20
-128.38939063469681
30
0
40
50
100
AcDbArc
50
0
51
90
0
LINE
5
209
100
AcDbEntity
8
0
100
AcDbLine
10
764.92219825834536
20
-458.38939063469684
30
0
11
1324.9221982583456
21
-458.38939063469684
31
0
0
LINE
5
210
100
AcDbEntity
8
0
100
AcDbLine
10
979.48010273974307
20
-1605.4944477037711
30
0
11
960.48010331902401
21
-1605.4897559353333
31
0
0
LINE
5
211
100
AcDbEntity
8
0
100
AcDbLine
10
941.8801040990611
20
-1605.4843691574779
30
0
11
929.01914983606378
21
-1605.4843691574779
31
0
0
LINE
5
212
100
AcDbEntity
8
0
100
AcDbLine
10
929.01914983606378
20
-1605.4843691574779
30
0
11
929.01914983606389
21
-1625.4049528521941
31
0
0
LINE
5
213
100
AcDbEntity
8
0
100
AcDbLine
10
1411.2589433413668
20
-1605.4049528521932
30
0
11
1424.6987368466698
21
-1605.4049528521937
31
0
0
LINE
5
214
100
AcDbEntity
8
0
100
AcDbLine
10
1424.6987368466698
20
-1625.4049528521937
30
0
11
1424.6987368466698
21
-1605.4049528521937
31
0
0
LINE
5
215
100
AcDbEntity
8
0
100
AcDbLine
10
941.8801040990611
20
-1605.4843691574779
30
0
11
941.8801040990611
21
-1630.4897559353331
31
0
0
LINE
5
216
100
AcDbEntity
8
0
100
AcDbLine
10
941.8801040990611
20
-1630.4897559353331
30
0
11
960.48010331902424
21
-1630.4897559353331
31
0
0
LINE
5
217
100
AcDbEntity
8
0
100
AcDbLine
10
960.48010331902424
20
-1630.4897559353331
30
0
11
960.48010331902401
21
-1605.4897559353333
31
0
0
LINE
5
218
100
AcDbEntity
8
0
100
AcDbLine
10
929.01914983606389
20
-1685.4042312262754
30
0
11
1424.6987368466703
21
-1685.404231226275
31
0
0
LINE
5
219
100
AcDbEntity
8
0
100
AcDbLine
10
1411.2589433413668
20
-1605.4049528521932
30
0
11
1411.2589433413673
21
-1630.4049528521932
31
0
0
LINE
5
220
100
AcDbEntity
8
0
100
AcDbLine
10
1411.2589433413673
20
-1630.4049528521932
30
0
11
1392.6589433413669
21
-1630.4049528521934
31
0
0
LINE
5
221
100
AcDbEntity
8
0
100
AcDbLine
10
1392.6589433413669
20
-1630.4049528521934
30
0
11
1392.6589433413669
21
-1605.4049528521934
31
0
0
LWPOLYLINE
5
222
100
AcDbEntity
8
0
100
AcDbPolyline
90
4
70
1
43
0.0
10
1821.6444459798188
20
-1639.9117919849346
10
1771.6444459798188
20
-1639.9117919849346
10
1771.6444459798188
20
-1739.9117919849346
10
1821.6444459798188
20
-1739.9117919849346
0
LWPOLYLINE
5
223
100
AcDbEntity
8
0
100
AcDbPolyline
90
4
70
1
43
0.0
10
1877.1592833599098
20
-1368.2110857311991
10
1877.1592833599098
20
-1468.2110857311991
10
1927.1592833599098
20
-1468.2110857311991
10
1927.1592833599098
20
-1368.2110857311991
0
LWPOLYLINE
5
224
100
AcDbEntity
8
0
100
AcDbPolyline
90
4
70
1
43
0.0
10
1935.1924439189602
20
-1631.998179181428
10
1935.1924439189602
20
-1731.998179181428
10
1985.1924439189602
20
-1731.998179181428
10
1985.1924439189602
20
-1631.998179181428
0
LWPOLYLINE
5
225
100
AcDbEntity
8
0
100
AcDbPolyline
90
4
70
1
43
0.0
10
2098.7404418581018
20
-1626.7224373124234
10
2098.7404418581018
20
-1726.7224373124234
10
2148.7404418581018
20
-1726.7224373124234
10
2148.7404418581018
20
-1626.7224373124234
0
LWPOLYLINE
5
226
100
AcDbEntity
8
0
100
AcDbPolyline
90
32
70
1
43
0.0
10
-2965.0225305970575
20
-1216.2963535429335
10
-2965.0225305970575
20
-1188.2443300531468
10
-3175.3736102292514
20
-1188.2443300531468
10
-3171.2260926479917
20
-1174.5261732527788
10
-3155.9085061190649
20
-1123.8623605768632
42
-0.33112567217459776
10
-3107.9554344118942
20
-1088.3324580655922
10
-2942.434790325306
20
-1088.6392099304123
10
-2942.193806459426
20
-958.60640729912461
42
-0.41365813525759554
10
-2892.1960656638794
20
-908.69906990810148
10
-2696.8534186101197
20
-908.69057898490018
42
-0.41420369860115669
10
-2646.8512454180227
20
-958.68672173972629
10
-2646.8255755547311
20
-1291.4394558369959
42
-0.41423615749603648
10
-2666.8255754952188
20
-1311.4409987161721
10
-2726.8240060435164
20
-1311.4409987161721
10
-2726.8240060435164
20
-1330.0409986628526
10
-2666.8210548607749
20
-1330.0409986628517
42
-0.41419096761891622
10
-2646.8210549202868
20
-1350.0394557842055
10
-2646.7891328911392
20
-1763.8377687172167
10
-2682.5584810119617
20
-1763.8405281063433
42
-0.41423615749603648
10
-2702.5600238911375
20
-1743.8405281658563
10
-2702.5600238911384
20
-1683.8435059821823
10
-2721.1600238357933
20
-1683.8435059821823
10
-2721.1600238357942
20
-1743.8450488018525
42
-0.41419096761114538
10
-2741.1584809566157
20
-1763.8450487423393
10
-3084.7047639566163
20
-1763.871551262728
42
-0.41423615749603648
10
-3104.7063068357929
20
-1743.8715513222401
10
-3104.7063068357938
20
-1683.8745291385644
10
-3123.3063067804478
20
-1683.8745291385644
10
-3123.3063067804483
20
-1743.8719311554005
42
-0.41425160699639402
10
-3143.3089045948741
20
-1763.871930986684
10
-3350.1416637804477
20
-1763.8450653301729
10
-3184.5969815187009
20
-1216.2963535429335
0
LINE
5
227
100
AcDbEntity
8
0
100
AcDbLine
10
-2646.8240060435164
20
-1311.7846809634218
30
0
11
-2646.824006043516
21
-1311.4409987161721
31
0
0
CIRCLE
5
228
100
AcDbEntity
8
0
100
AcDbCircle
10
-2851.5852900052364
20
-1260.8024141621904
30
0
40
42.5
0
CIRCLE
5
229
100
AcDbEntity
8
0
100
AcDbCircle
10
-2852.3441337663035
20
-1379.4953471132912
30
0
40
42.5
0
LWPOLYLINE
5
230
100
AcDbEntity
8
0
100
AcDbPolyline
90
4
70
1
43
0.0
10
-2684.7347413642919
20
-1059.6760402964519
10
-2715.9199697108852
20
-1043.7863728055677
10
-2705.4781882168754
20
-1023.2932227492353
10
-2674.2929598702822
20
-1039.1828902401194
0
LWPOLYLINE
5
231
100
AcDbEntity
8
0
100
AcDbPolyline
90
4
70
1
43
0.0
10
-2732.2214802935837
20
-1028.3304700973522
10
-2766.1066477068175
20
-1019.5671699554468
10
-2760.3479076135645
20
-997.29977422675029
10
-2726.4627402003316
20
-1006.0630743686557
0
LWPOLYLINE
5
232
100
AcDbEntity
8
0
100
AcDbPolyline
90
4
70
1
43
0.0
10
-2820.3456959596278
20
-1006.7844441275215
10
-2819.5430075354707
20
-983.79845510608243
10
-2784.5643285898022
20
-985.01993749066992
10
-2785.3670170139599
20
-1008.0059265121092
0
LINE
5
233
100
AcDbEntity
8
0
100
AcDbLine
10
-2819.4141015077766
20
-983.79179265833511
30
0
11
-2819.5430075354707
21
-983.79845510608243
31
0
0
LWPOLYLINE
5
234
100
AcDbEntity
8
0
100
AcDbPolyline
90
4
70
1
43
0.0
10
-3111.5852900052364
20
-1384.8217177517931
10
-3111.5852900052364
20
-1434.8217177517931
10
-3134.5852900052364
20
-1434.8217177517931
10
-3134.5852900052364
20
-1384.8217177517931
0
LWPOLYLINE
5
235
100
AcDbEntity
8
0
100
AcDbPolyline
90
4
70
1
43
0.0
10
-3090.0297273600386
20
-1420.718870211557
10
-3067.0437383385997
20
-1421.5215586357147
10
-3065.2987635034742
20
-1371.5520172847596
10
-3088.2847525249135
20
-1370.7493288606022
0
LWPOLYLINE
5
236
100
AcDbEntity
8
0
100
AcDbPolyline
90
4
70
1
43
0.0
10
-3111.5852900052364
20
-1384.8217177517931
10
-3111.5852900052364
20
-1434.8217177517931
10
-3134.5852900052364
20
-1434.8217177517931
10
-3134.5852900052364
20
-1384.8217177517931
0
LWPOLYLINE
5
237
100
AcDbEntity
8
0
100
AcDbPolyline
90
4
70
1
43
0.0
10
-3090.0297273600386
20
-1420.718870211557
10
-3067.0437383385997
20
-1421.5215586357147
10
-3065.2987635034742
20
-1371.5520172847596
10
-3088.2847525249135
20
-1370.7493288606022
0
LWPOLYLINE
5
238
100
AcDbEntity
8
0
100
AcDbPolyline
90
4
70
1
43
0.0
10
-3171.5038554607577
20
-1405.3475204729621
10
-3148.6298518672875
20
-1407.751675128118
10
-3143.4034287039049
20
-1358.0255803597042
10
-3166.2774322973751
20
-1355.6214257045485
0
LINE
5
239
100
AcDbEntity
8
0
100
AcDbLine
10
-3148.6298518672875
20
-1407.751675128118
30
0
11
-3171.5038554607577
21
-1405.3475204729621
31
0
0
LINE
5
240
100
AcDbEntity
8
0
100
AcDbLine
10
-3166.2774322973751
20
-1355.6214257045485
30
0
11
-3143.4034287039049
21
-1358.0255803597042
31
0
0
LINE
5
241
100
AcDbEntity
8
0
100
AcDbLine
10
-3171.5038554607577
20
-1405.3475204729621
30
0
11
-3166.2774322973751
21
-1355.6214257045485
31
0
0
LINE
5
242
100
AcDbEntity
8
0
100
AcDbLine
10
1044.9221982583454
20
-409.0393906346967
30
0
11
1044.9221982583454
21
-427.63939063469672
31
0
0
LWPOLYLINE
5
243
100
AcDbEntity
8
0
100
AcDbPolyline
90
4
70
1
43
0.0
10
-4463.0242120417352
20
-1506.4512207350781
10
-4463.0242120417352
20
-1556.4512207350781
10
-4486.0242120417352
20
-1556.4512207350781
10
-4486.0242120417352
20
-1506.4512207350781
0
LWPOLYLINE
5
244
100
AcDbEntity
8
0
100
AcDbPolyline
90
32
70
1
43
0.0
10
-4507.3435344252985
20
-1245.487230169801
42
-0.331169941569531
10
-4459.3847209368068
20
-1209.9543234347693
10
-4293.8625535491083
20
-1210.277070355733
10
-4293.6089620412386
20
-1080.2215584745838
42
-0.41363576146542641
10
-4243.6102205810475
20
-1030.3190518669599
10
-4048.2655257282804
20
-1030.314506234474
42
-0.41421404213775581
10
-3998.2643622498499
20
-1080.3134246317434
10
-3998.2571623785107
20
-1413.151039247264
42
-0.41421989819009347
10
-4018.2571623738313
20
-1433.151471882941
10
-4078.2567297313126
20
-1433.151471882941
10
-4078.2567297313126
20
-1451.7514718785892
10
-4018.2558947528305
20
-1451.7514718785897
42
-0.41420722659224413
10
-3998.2558947575103
20
-1471.7510392434417
10
-3998.2469454471184
20
-1885.4627057424384
10
-4034.0174038114424
20
-1885.4634795212619
42
-0.41421989819008925
10
-4054.0178364471185
20
-1865.4634795259424
10
-4054.0178364471185
20
-1805.464314517478
10
-4072.6178364427669
20
-1805.464314517478
10
-4072.617836442766
20
-1865.4647471484764
42
-0.41420722658447745
10
-4092.6174038070876
20
-1885.4647471437963
10
-4436.1636868070891
20
-1885.4721786627372
42
-0.41421989819009758
10
-4456.1641194427666
20
-1865.4721786674165
10
-4456.1641194427666
20
-1805.4730136589501
10
-4474.764119438415
20
-1805.4730136589501
10
-4474.7641194384159
20
-1865.4714388241669
42
-0.41423662457461513
10
-4494.7656942111971
20
-1885.4714387621686
10
-4701.5994764384159
20
-1885.4551529515916
10
-4536.0892691992976
20
-1337.8960192457678
10
-4316.4614526335563
20
-1337.8960192457678
10
-4316.4614526335563
20
-1309.8762504553879
10
-4526.8063457188764
20
-1309.8762504553874
10
-4522.6595400668175
20
-1296.1573303454811
0
LWPOLYLINE
5
245
100
AcDbEntity
8
0
100
AcDbPolyline
90
4
70
1
43
0.0
10
-4500.0687739037867
20
-1529.381178111403
10
-4494.8423507404041
20
-1479.6550833429892
10
-4517.7163543338738
20
-1477.2509286878335
10
-4522.9427774972564
20
-1526.977023456247
0
LWPOLYLINE
5
246
100
AcDbEntity
8
0
100
AcDbPolyline
90
4
70
1
43
0.0
10
-4439.7236745614118
20
-1492.3788318438872
10
-4441.4686493965373
20
-1542.348373194842
10
-4418.4826603750989
20
-1543.1510616189996
10
-4416.7376855399734
20
-1493.1815202680446
0
LWPOLYLINE
5
247
100
AcDbEntity
8
0
100
AcDbPolyline
90
4
70
1
43
0.0
10
-4416.7376855399734
20
-1493.1815202680446
10
-4439.7236745614118
20
-1492.3788318438872
10
-4441.4686493965373
20
-1542.348373194842
10
-4418.4826603750989
20
-1543.1510616189996
0
LINE
5
248
100
AcDbEntity
8
0
100
AcDbLine
10
-4517.7163543338738
20
-1477.2509286878335
30
0
11
-4494.8423507404041
21
-1479.6550833429892
31
0
0
LINE
5
249
100
AcDbEntity
8
0
100
AcDbLine
10
-3998.2567297313126
20
-1433.1515718829455
30
0
11
-3998.256729731313
21
-1433.1514718829408
31
0
0
CIRCLE
5
250
100
AcDbEntity
8
0
100
AcDbCircle
10
-4203.0242120417352
20
-1382.4319171454754
30
0
40
42.5
0
LWPOLYLINE
5
251
100
AcDbEntity
8
0
100
AcDbPolyline
90
4
70
1
43
0.0
10
-4036.1736634007912
20
-1181.3055432797369
10
-4067.3588917473844
20
-1165.4158757888526
10
-4056.9171102533746
20
-1144.9227257325201
10
-4025.7318819067814
20
-1160.8123932234043
0
LWPOLYLINE
5
252
100
AcDbEntity
8
0
100
AcDbPolyline
90
4
70
1
43
0.0
10
-4083.6604023300829
20
-1149.9599730806372
10
-4117.5455697433163
20
-1141.1966729387318
10
-4111.7868296500637
20
-1118.9292772100353
10
-4077.9016622368308
20
-1127.6925773519408
0
LWPOLYLINE
5
253
100
AcDbEntity
8
0
100
AcDbPolyline
90
4
70
1
43
0.0
10
-4171.7846179961271
20
-1128.4139471108065
10
-4170.9819295719699
20
-1105.4279580893674
10
-4136.0032506263015
20
-1106.6494404739549
10
-4136.8059390504586
20
-1129.6354294953942
0
LINE
5
254
100
AcDbEntity
8
0
100
AcDbLine
10
-4170.8530235442759
20
-1105.4212956416202
30
0
11
-4170.9819295719699
21
-1105.4279580893674
31
0
0
LWPOLYLINE
5
255
100
AcDbEntity
8
0
100
AcDbPolyline
90
4
70
1
43
0.0
10
-4486.0242120417352
20
-1506.4512207350781
10
-4463.0242120417352
20
-1506.4512207350781
10
-4463.0242120417352
20
-1556.4512207350781
10
-4486.0242120417352
20
-1556.4512207350781
0
LINE
5
256
100
AcDbEntity
8
0
100
AcDbLine
10
-4500.0687739037867
20
-1529.381178111403
30
0
11
-4522.9427774972564
21
-1526.977023456247
31
0
0
CIRCLE
5
257
100
AcDbEntity
8
0
100
AcDbCircle
10
-4203.7830558028027
20
-1501.1248500965762
30
0
40
42.5
0
LINE
5
258
100
AcDbEntity
8
0
100
AcDbLine
10
-4522.9427774972564
20
-1526.977023456247
30
0
11
-4517.7163543338738
21
-1477.2509286878335
31
0
0
LWPOLYLINE
5
259
100
AcDbEntity
8
0
100
AcDbPolyline
90
10
70
1
43
0.0
10
-670.39798771957749
20
-890.77582300045208
10
-670.39798771957749
20
-800.77582300045208
10
-701.04798771957758
20
-800.77582300045208
10
-701.04798771957758
20
-850.77582300045208
10
-719.6479877195776
20
-850.77582300045208
10
-719.6479877195776
20
-800.77582300045208
10
-750.39798771957749
20
-800.77582300045208
10
-750.39798771957749
20
-890.77582300045208
42
0.41421356237310336
10
-740.39798771957749
20
-900.77582300045208
10
-680.39798771957749
20
-900.77582300045208
42
0.41421356237310336
0
LINE
5
260
100
AcDbEntity
8
0
100
AcDbLine
10
-719.6479877195776
20
-850.77582300045208
30
0
11
-701.04798771957758
21
-850.77582300045208
31
0
0
LINE
5
261
100
AcDbEntity
8
0
100
AcDbLine
10
74.630207752567713
20
-603.32019423731242
30
0
11
74.630207752567713
21
-603.32019423731242
31
0
0
LINE
5
262
100
AcDbEntity
8
0
100
AcDbLine
10
74.630207752567713
20
-641.91865747202598
30
0
11
74.630207752567713
21
-641.91865747202598
31
0
0
LINE
5
263
100
AcDbEntity
8
0
100
AcDbLine
10
84.629662524060976
20
-613.31907380902192
30
0
11
124.6047912184103
21
-613.32125311608854
31
0
0
LINE
5
264
100
AcDbEntity
8
0
100
AcDbLine
10
84.630752909638289
20
-631.91907389610594
30
0
11
124.60377721013295
21
-631.92125308844845
31
0
0
LINE
5
265
100
AcDbEntity
8
0
100
AcDbLine
10
644.62688102145034
20
-613.7864439848272
30
0
11
604.62675245600838
21
-613.78645654163233
31
0
0
LINE
5
266
100
AcDbEntity
8
0
100
AcDbLine
10
604.62675245600838
20
-613.78645654163233
30
0
11
604.62675833242474
21
-632.38645654163224
31
0
0
LINE
5
267
100
AcDbEntity
8
0
100
AcDbLine
10
644.45154813549539
20
-631.68797832247822
30
0
11
604.62675833242474
21
-632.38645654163224
31
0
0
LINE
5
268
100
AcDbEntity
8
0
100
AcDbLine
10
654.6268688201385
20
-592.73653117315507
30
0
11
654.62687788225583
21
-603.7864357837459
31
0
0
LINE
5
269
100
AcDbEntity
8
0
100
AcDbLine
10
654.62690896435345
20
-641.68643243215706
30
0
11
654.62691802663358
21
-652.73653583681903
31
0
0
ARC
5
270
100
AcDbEntity
8
0
100
AcDbCircle
10
84.630207689801452
20
-603.31907382388204
30
0
40
10.00000000000005
100
AcDbArc
50
180.00641949605966
51
269.99687643039204
0
ARC
5
271
100
AcDbEntity
8
0
100
AcDbCircle
10
84.630207743897785
20
-641.91907388124582
30
0
40
10.000000000000064
100
AcDbArc
50
89.996876430391836
51
179.99761415097001
0
ARC
5
272
100
AcDbEntity
8
0
100
AcDbCircle
10
644.62687788225924
20
-603.78644398482777
30
0
40
9.9999999999999254
100
AcDbArc
50
-89.999982013759833
51
4.6988586601783713e-05
0
ARC
5
273
100
AcDbEntity
8
0
100
AcDbCircle
10
644.62690896435674
20
-641.68644063323904
30
0
40
10.000000000000092
100
AcDbArc
50
4.6988586601783713e-05
51
91.004795041179221
0
LWPOLYLINE
5
274
100
AcDbEntity
8
0
100
AcDbPolyline
90
10
70
1
43
0.0
10
-1119.1376382401245
20
-999.24813213579432
42
-0.41421356237310336
10
-1129.1376382401245
20
-989.24813213579432
10
-1129.1376382401245
20
-899.24813213579432
10
-1098.3876382401245
20
-899.24813213579432
10
-1098.3876382401245
20
-949.24813213579432
10
-1079.7876382401246
20
-949.24813213579432
10
-1079.7876382401246
20
-899.24813213579432
10
-1049.1376382401245
20
-899.24813213579432
10
-1049.1376382401245
20
-989.24813213579432
42
-0.41421356237310336
10
-1059.1376382401245
20
-999.24813213579432
0
LINE
5
275
100
AcDbEntity
8
0
100
AcDbLine
10
-1098.3876382401245
20
-949.24813213579432
30
0
11
-1079.7876382401246
21
-949.24813213579432
31
0
0
LINE
5
276
100
AcDbEntity
8
0
100
AcDbLine
10
979.48010273974296
20
-1555.4494837896607
30
0
11
1374.480102739743
21
-1555.4494837896607
31
0
0
LINE
5
277
100
AcDbEntity
8
0
100
AcDbLine
10
1374.480102739743
20
-1555.4494837896607
30
0
11
1374.480102739743
21
-1555.4047363638715
31
0
0
LINE
5
278
100
AcDbEntity
8
0
100
AcDbLine
10
1374.480102739743
20
-1555.4047363638715
30
0
11
979.48010273974296
21
-1555.4047363638715
31
0
0
LINE
5
279
100
AcDbEntity
8
0
100
AcDbLine
10
979.48010273974296
20
-1555.4047363638715
30
0
11
979.48010273974296
21
-1555.4494837896607
31
0
0
LWPOLYLINE
5
280
100
AcDbEntity
8
0
100
AcDbPolyline
90
18
70
1
43
0.0
10
-2856.7829352942745
20
-2284.8589830662131
10
-2856.7829352942745
20
-2234.8589830662131
10
-2879.061255503545
20
-2234.8589830662131
42
0.41421356237310336
10
-2889.061255503545
20
-2244.8589830662131
10
-2889.061255503545
20
-2284.8589830662131
10
-2907.6612555035449
20
-2284.8589830662131
10
-2907.6612555035454
20
-2244.8589830662131
42
0.41421356237310336
10
-2917.6612555035449
20
-2234.8589830662131
10
-3292.6612555035449
20
-2234.8589830662131
42
0.41421356237310336
10
-3302.6612555035449
20
-2244.8589830662131
10
-3302.6612555035449
20
-2284.8589830662131
10
-3321.2612555035453
20
-2284.8589830662131
10
-3321.2612555035453
20
-2244.8589830662131
42
0.41421356237310336
10
-3331.2612555035453
20
-2234.8589830662131
10
-3351.7829352942745
20
-2234.8589830662131
10
-3351.7829352942745
20
-2284.8589830662131
42
0.41421356237309337
10
-3301.7829352942745
20
-2334.8589830662131
10
-2906.7829352942736
20
-2334.8589830662131
42
0.41421356237308998
0
ENDSEC
0
SECTION
2
OBJECTS
0
DICTIONARY
5
C
100
AcDbDictionary
3
ACAD_GROUP
350
D
3
ACAD_MLINESTYLE
350
17
0
DICTIONARY
5
D
100
AcDbDictionary
0
DICTIONARY
5
1A
330
C
100
AcDbDictionary
0
DICTIONARY
5
17
100
AcDbDictionary
0
ENDSEC
0
EOF
